  0
SECTION
  2
HEADER
  9
$ACADVER
  1
AC1009
  9
$DWGCODEPAGE
  3
ansi_1252
  9
$INSBASE
 10
0.0
 20
0.0
 30
0.0
  9
$EXTMIN
 10
1.000000000000000E+20
 20
1.000000000000000E+20
 30
1.000000000000000E+20
  9
$EXTMAX
 10
-1.000000000000000E+20
 20
-1.000000000000000E+20
 30
-1.000000000000000E+20
  9
$LIMMIN
 10
0.0
 20
0.0
  9
$LIMMAX
 10
12.0
 20
9.0
  9
$ORTHOMODE
 70
     0
  9
$REGENMODE
 70
     1
  9
$FILLMODE
 70
     1
  9
$QTEXTMODE
 70
     0
  9
$MIRRTEXT
 70
     1
  9
$DRAGMODE
 70
     2
  9
$LTSCALE
 40
1.0
  9
$OSMODE
 70
    37
  9
$ATTMODE
 70
     1
  9
$TEXTSIZE
 40
0.2
  9
$TRACEWID
 40
0.05
  9
$TEXTSTYLE
  7
STANDARD
  9
$CLAYER
  8
0
  9
$CELTYPE
  6
BYLAYER
  9
$CECOLOR
 62
   256
  9
$DIMSCALE
 40
1.0
  9
$DIMASZ
 40
0.18
  9
$DIMEXO
 40
0.0625
  9
$DIMDLI
 40
0.38
  9
$DIMRND
 40
0.0
  9
$DIMDLE
 40
0.0
  9
$DIMEXE
 40
0.18
  9
$DIMTP
 40
0.0
  9
$DIMTM
 40
0.0
  9
$DIMTXT
 40
0.18
  9
$DIMCEN
 40
0.09
  9
$DIMTSZ
 40
0.0
  9
$DIMTOL
 70
     0
  9
$DIMLIM
 70
     0
  9
$DIMTIH
 70
     1
  9
$DIMTOH
 70
     1
  9
$DIMSE1
 70
     0
  9
$DIMSE2
 70
     0
  9
$DIMTAD
 70
     0
  9
$DIMZIN
 70
     0
  9
$DIMBLK
  1

  9
$DIMASO
 70
     1
  9
$DIMSHO
 70
     1
  9
$DIMPOST
  1

  9
$DIMAPOST
  1

  9
$DIMALT
 70
     0
  9
$DIMALTD
 70
     2
  9
$DIMALTF
 40
25.4
  9
$DIMLFAC
 40
1.0
  9
$DIMTOFL
 70
     0
  9
$DIMTVP
 40
0.0
  9
$DIMTIX
 70
     0
  9
$DIMSOXD
 70
     0
  9
$DIMSAH
 70
     0
  9
$DIMBLK1
  1

  9
$DIMBLK2
  1

  9
$DIMSTYLE
  2
STANDARD
  9
$DIMCLRD
 70
     0
  9
$DIMCLRE
 70
     0
  9
$DIMCLRT
 70
     0
  9
$DIMTFAC
 40
1.0
  9
$DIMGAP
 40
0.09
  9
$LUNITS
 70
     2
  9
$LUPREC
 70
     4
  9
$SKETCHINC
 40
0.1
  9
$FILLETRAD
 40
0.5
  9
$AUNITS
 70
     0
  9
$AUPREC
 70
     0
  9
$MENU
  1
.
  9
$ELEVATION
 40
0.0
  9
$PELEVATION
 40
0.0
  9
$THICKNESS
 40
0.0
  9
$LIMCHECK
 70
     0
  9
$CHAMFERA
 40
0.5
  9
$CHAMFERB
 40
0.5
  9
$SKPOLY
 70
     0
  9
$TDCREATE
 40
2458828.409490972
  9
$TDUPDATE
 40
2458828.36782434
  9
$TDINDWG
 40
0.0000000116
  9
$TDUSRTIMER
 40
0.0000000116
  9
$USRTIMER
 70
     1
  9
$ANGBASE
 50
0.0
  9
$ANGDIR
 70
     0
  9
$PDMODE
 70
     0
  9
$PDSIZE
 40
0.0
  9
$PLINEWID
 40
0.0
  9
$COORDS
 70
     1
  9
$SPLFRAME
 70
     0
  9
$SPLINETYPE
 70
     6
  9
$SPLINESEGS
 70
     8
  9
$ATTDIA
 70
     0
  9
$ATTREQ
 70
     1
  9
$HANDLING
 70
     1
  9
$HANDSEED
  5
B3
  9
$SURFTAB1
 70
     6
  9
$SURFTAB2
 70
     6
  9
$SURFTYPE
 70
     6
  9
$SURFU
 70
     6
  9
$SURFV
 70
     6
  9
$UCSNAME
  2

  9
$UCSORG
 10
0.0
 20
0.0
 30
0.0
  9
$UCSXDIR
 10
1.0
 20
0.0
 30
0.0
  9
$UCSYDIR
 10
0.0
 20
1.0
 30
0.0
  9
$PUCSNAME
  2

  9
$PUCSORG
 10
0.0
 20
0.0
 30
0.0
  9
$PUCSXDIR
 10
1.0
 20
0.0
 30
0.0
  9
$PUCSYDIR
 10
0.0
 20
1.0
 30
0.0
  9
$USERI1
 70
     0
  9
$USERI2
 70
     0
  9
$USERI3
 70
     0
  9
$USERI4
 70
     0
  9
$USERI5
 70
     0
  9
$USERR1
 40
0.0
  9
$USERR2
 40
0.0
  9
$USERR3
 40
0.0
  9
$USERR4
 40
0.0
  9
$USERR5
 40
0.0
  9
$WORLDVIEW
 70
     1
  9
$SHADEDGE
 70
     3
  9
$SHADEDIF
 70
    70
  9
$TILEMODE
 70
     1
  9
$MAXACTVP
 70
    64
  9
$PLIMCHECK
 70
     0
  9
$PEXTMIN
 10
1.000000000000000E+20
 20
1.000000000000000E+20
 30
1.000000000000000E+20
  9
$PEXTMAX
 10
-1.000000000000000E+20
 20
-1.000000000000000E+20
 30
-1.000000000000000E+20
  9
$PLIMMIN
 10
0.0
 20
0.0
  9
$PLIMMAX
 10
12.0
 20
9.0
  9
$UNITMODE
 70
     0
  9
$VISRETAIN
 70
     1
  9
$PLINEGEN
 70
     0
  9
$PSLTSCALE
 70
     1
  0
ENDSEC
  0
SECTION
  2
TABLES
  0
TABLE
  2
VPORT
 70
     1
  0
VPORT
  2
*ACTIVE
 70
     0
 10
0.0
 20
0.0
 11
1.0
 21
1.0
 12
0.0
 22
3.658720742837211
 13
0.0
 23
0.0
 14
0.5
 24
0.5
 15
0.5
 25
0.5
 16
0.0
 26
0.0
 36
1.0
 17
0.0
 27
0.0
 37
0.0
 40
7.317441485674422
 41
10.00132844151265
 42
50.0
 43
0.0
 44
0.0
 50
0.0
 51
0.0
 71
     0
 72
   100
 73
     1
 74
     3
 75
     0
 76
     0
 77
     0
 78
     0
  0
ENDTAB
  0
TABLE
  2
LTYPE
 70
     1
  0
LTYPE
  2
CONTINUOUS
 70
     0
  3
Solid line
 72
    65
 73
     0
 40
0.0
  0
ENDTAB
  0
TABLE
  2
LAYER
 70
     9
  0
LAYER
  2
0
 70
     0
 62
     7
  6
CONTINUOUS
  0
LAYER
  2
1
 70
     0
 62
     3
  6
CONTINUOUS
  0
LAYER
  2
2
 70
     0
 62
     5
  6
CONTINUOUS
  0
LAYER
  2
3
 70
     0
 62
   211
  6
CONTINUOUS
  0
LAYER
  2
4
 70
     0
 62
    30
  6
CONTINUOUS
  0
LAYER
  2
5
 70
     0
 62
     1
  6
CONTINUOUS
  0
LAYER
  2
6
 70
     0
 62
   191
  6
CONTINUOUS
  0
LAYER
  2
7
 70
     0
 62
     2
  6
CONTINUOUS
  0
LAYER
  2
8
 70
     0
 62
    32
  6
CONTINUOUS
  0
ENDTAB
  0
TABLE
  2
STYLE
 70
     1
  0
STYLE
  2
STANDARD
 70
     0
 40
0.0
 41
1.0
 50
0.0
 71
     0
 42
0.2
  3
txt
  4

  0
ENDTAB
  0
TABLE
  2
VIEW
 70
     0
  0
ENDTAB
  0
TABLE
  2
UCS
 70
     0
  0
ENDTAB
  0
TABLE
  2
APPID
 70
     2
  0
APPID
  2
ACAD
 70
     0
  0
APPID
  2
ODA
 70
     0
  0
ENDTAB
  0
TABLE
  2
DIMSTYLE
 70
     1
  0
DIMSTYLE
  2
STANDARD
 70
     0
  3

  4

  5

  6

  7

 40
1.0
 41
0.18
 42
0.0625
 43
0.38
 44
0.18
 45
0.0
 46
0.0
 47
0.0
 48
0.0
140
0.18
141
0.09
142
0.0
143
25.4
144
1.0
145
0.0
146
1.0
147
0.09
 71
     0
 72
     0
 73
     1
 74
     1
 75
     0
 76
     0
 77
     0
 78
     0
170
     0
171
     2
172
     0
173
     0
174
     0
175
     0
176
     0
177
     0
178
     0
  0
ENDTAB
  0
ENDSEC
  0
SECTION
  2
BLOCKS
  0
BLOCK
  8
0
  2
$MODEL_SPACE
 70
     0
 10
0.0
 20
0.0
 30
0.0
  3
$MODEL_SPACE
  1

  0
ENDBLK
  5
21
  8
0
  0
BLOCK
 67
     1
  8
0
  2
$PAPER_SPACE
 70
     0
 10
0.0
 20
0.0
 30
0.0
  3
$PAPER_SPACE
  1

  0
ENDBLK
  5
1D
 67
     1
  8
0
  0
ENDSEC
  0
SECTION
  2
ENTITIES
  0
ARC
  5
48
  8
0
 10
-107.9999999999993
 20
90.25140748455318
 30
0.0
 40
1.999999999999986
 50
187.2213978046387
 51
265.4999999897089
  0
ARC
  5
49
  8
0
 10
-39.59496907754522
 20
85.2680358214696
 30
0.0
 40
0.2000000000017877
 50
81.50000000937388
 51
151.1468005237854
  0
ARC
  5
4A
  8
0
 10
-41.08392936241783
 20
86.08839992970768
 30
0.0
 40
1.500000000002094
 50
191.8531994753356
 51
331.1468005041468
  0
ARC
  5
4B
  8
0
 10
-42.74768041709913
 20
85.73921168813271
 30
0.0
 40
0.200000000000071
 50
11.85319949589826
 51
81.5000000099551
  0
ARC
  5
4C
  8
0
 10
-45.29999999999708
 20
86.12065840557409
 30
0.0
 40
0.2000000000020173
 50
81.50000000926434
 51
165.3826558988131
  0
ARC
  5
4D
  8
0
 10
-46.94497579700116
 20
86.54967428788818
 30
0.0
 40
1.500000000000023
 50
308.3334280557795
 51
345.3826558789029
  0
ARC
  5
4E
  8
0
 10
-65.79999999999463
 20
88.00000000000009
 30
0.0
 40
0.4999999999999071
 50
89.99999065767054
 51
179.9999906864291
  0
ARC
  5
4F
  8
0
 10
-62.29999999999476
 20
89.00000000000001
 30
0.0
 40
0.5000000000000284
 50
269.9999999897138
 51
0.0
  0
ARC
  5
50
  8
0
 10
-61.99999999999442
 20
89.50000000380211
 30
0.0
 40
0.1999999999998963
 50
0.0
 51
45.0000003733643
  0
ARC
  5
51
  8
0
 10
-62.29999999999453
 20
89.80000000000061
 30
0.0
 40
0.1999999999998539
 50
45.00000001026981
 51
90.0000000102775
  0
ARC
  5
52
  8
0
 10
-62.29999999999439
 20
89.80000000000037
 30
0.0
 40
0.2000000000000881
 50
90.0000000103182
 51
135.0000000103087
  0
ARC
  5
53
  8
0
 10
-62.79999999724249
 20
89.86568542494962
 30
0.0
 40
0.2000000000000951
 50
224.9999999897033
 51
314.9999999897134
  0
ARC
  5
54
  8
0
 10
-63.29999999999455
 20
89.80000000000055
 30
0.0
 40
0.1999999999999041
 50
45.00000001027267
 51
90.00000001027956
  0
ARC
  5
55
  8
0
 10
-63.29999999999439
 20
89.80000000000038
 30
0.0
 40
0.2000000000000739
 50
90.00000001032434
 51
135.0000000103072
  0
ARC
  5
56
  8
0
 10
-63.7999999972424
 20
89.86568542494955
 30
0.0
 40
0.1999999999999745
 50
224.999999989709
 51
314.9999999897119
  0
ARC
  5
57
  8
0
 10
-64.29999999999453
 20
89.80000000000065
 30
0.0
 40
0.1999999999998087
 50
45.00000001026549
 51
90.00000001027549
  0
ARC
  5
58
  8
0
 10
-64.29999999999438
 20
89.80000000000035
 30
0.0
 40
0.2000000000001023
 50
90.00000001032026
 51
135.0000000103087
  0
ARC
  5
59
  8
0
 10
-64.79999999724248
 20
89.86568542494965
 30
0.0
 40
0.2000000000001202
 50
224.9999999897076
 51
314.9999999897134
  0
ARC
  5
5A
  8
0
 10
-65.29999999999454
 20
89.80000000000058
 30
0.0
 40
0.199999999999879
 50
45.00000001026837
 51
90.00000001028361
  0
ARC
  5
5B
  8
0
 10
-65.29999999999438
 20
89.80000000000041
 30
0.0
 40
0.2000000000000455
 50
90.00000001033247
 51
135.0000000103145
  0
ARC
  5
5C
  8
0
 10
-65.7999999972424
 20
89.86568542494953
 30
0.0
 40
0.1999999999999594
 50
224.9999999897076
 51
314.9999999897134
  0
ARC
  5
5D
  8
0
 10
-66.29999999999455
 20
89.80000000000061
 30
0.0
 40
0.1999999999998589
 50
45.00000001026837
 51
90.0000000102714
  0
ARC
  5
5E
  8
0
 10
-66.29999999999438
 20
89.80000000000041
 30
0.0
 40
0.2000000000000455
 50
90.00000001032434
 51
135.0000000103115
  0
ARC
  5
5F
  8
0
 10
-66.79999999724217
 20
89.86568542494933
 30
0.0
 40
0.1999999999999795
 50
224.9999999896212
 51
314.999999989627
  0
ARC
  5
60
  8
0
 10
-67.29999999999472
 20
89.80000000000015
 30
0.0
 40
0.200000000000291
 50
45.000000010277
 51
90.00000001028769
  0
ARC
  5
61
  8
0
 10
-67.2999999999945
 20
89.80000000000068
 30
0.0
 40
0.1999999999997755
 50
90.0000000103569
 51
135.0000000103432
  0
ARC
  5
62
  8
0
 10
-67.79999999724217
 20
89.86568542494933
 30
0.0
 40
0.1999999999999795
 50
224.9999999896212
 51
314.999999989627
  0
ARC
  5
63
  8
0
 10
-68.29999999999445
 20
89.79999999999926
 30
0.0
 40
0.2000000000007532
 50
45.00000001036911
 51
90.00000001037318
  0
ARC
  5
64
  8
0
 10
-68.29999999999507
 20
89.80000000000048
 30
0.0
 40
0.1999999999995197
 50
90.00000001019812
 51
135.0000000101878
  0
ARC
  5
65
  8
0
 10
-68.79999999724237
 20
89.86568542494912
 30
0.0
 40
0.1999999999999996
 50
224.9999999897076
 51
314.9999999897134
  0
ARC
  5
66
  8
0
 10
-69.29999999999445
 20
89.7999999999993
 30
0.0
 40
0.200000000000703
 50
45.00000001035472
 51
90.00000001036504
  0
ARC
  5
67
  8
0
 10
-69.29999999999507
 20
89.8000000000005
 30
0.0
 40
0.1999999999995055
 50
90.00000001019407
 51
135.0000000101935
  0
ARC
  5
68
  8
0
 10
-69.59999999999464
 20
89.50000000000014
 30
0.0
 40
0.20000000000008
 50
135.0000000051616
 51
179.9999999897105
  0
ARC
  5
69
  8
0
 10
-68.79999999999485
 20
89.50000000000034
 30
0.0
 40
0.9999999999998721
 50
179.9999999897105
 51
269.9999999897178
  0
ARC
  5
6A
  8
0
 10
-68.29999999999467
 20
88.00000000000028
 30
0.0
 40
0.5000000000001705
 50
0.0
 51
90.00000001027061
  0
ARC
  5
6B
  8
0
 10
-100.4999999999999
 20
89.8000000000005
 30
0.0
 40
0.1999999999999594
 50
45.00000001027987
 51
90.00000001028769
  0
ARC
  5
6C
  8
0
 10
-100.4999999999998
 20
89.80000000000038
 30
0.0
 40
0.2000000000000739
 50
90.00000001031619
 51
135.0000000103058
  0
ARC
  5
6D
  8
0
 10
-100.9999999972479
 20
89.86568542494963
 30
0.0
 40
0.2000000000001101
 50
224.9999999897047
 51
314.9999999897162
  0
ARC
  5
6E
  8
0
 10
-101.4999999999999
 20
89.80000000000048
 30
0.0
 40
0.1999999999999795
 50
45.00000001028563
 51
90.00000001028769
  0
ARC
  5
6F
  8
0
 10
-101.4999999999998
 20
89.80000000000037
 30
0.0
 40
0.2000000000000881
 50
90.00000001031619
 51
135.0000000103
  0
ARC
  5
70
  8
0
 10
-101.9999999972478
 20
89.86568542494956
 30
0.0
 40
0.1999999999999895
 50
224.9999999897105
 51
314.9999999897105
  0
ARC
  5
71
  8
0
 10
-102.4999999999999
 20
89.80000000000051
 30
0.0
 40
0.1999999999999494
 50
45.00000001028275
 51
90.00000001029177
  0
ARC
  5
72
  8
0
 10
-102.4999999999998
 20
89.80000000000038
 30
0.0
 40
0.2000000000000739
 50
90.00000001031619
 51
135.0000000103058
  0
ARC
  5
73
  8
0
 10
-102.9999999972479
 20
89.86568542494965
 30
0.0
 40
0.2000000000001202
 50
224.9999999897076
 51
314.9999999897134
  0
ARC
  5
74
  8
0
 10
-103.4999999999998
 20
89.80000000000064
 30
0.0
 40
0.1999999999998187
 50
45.00000001026261
 51
90.00000001027549
  0
ARC
  5
75
  8
0
 10
-103.4999999999997
 20
89.80000000000024
 30
0.0
 40
0.200000000000216
 50
90.00000001031214
 51
135.0000000102914
  0
ARC
  5
76
  8
0
 10
-103.9999999972478
 20
89.86568542494955
 30
0.0
 40
0.1999999999999795
 50
224.9999999897076
 51
314.9999999897134
  0
ARC
  5
77
  8
0
 10
-104.5
 20
89.80000000000061
 30
0.0
 40
0.1999999999998589
 50
45.00000001026837
 51
90.0000000102714
  0
ARC
  5
78
  8
0
 10
-104.4999999999998
 20
89.80000000000038
 30
0.0
 40
0.2000000000000739
 50
90.00000001031619
 51
135.0000000103058
  0
ARC
  5
79
  8
0
 10
-104.9999999972475
 20
89.86568542494933
 30
0.0
 40
0.1999999999999795
 50
224.9999999896212
 51
314.999999989627
  0
ARC
  5
7A
  8
0
 10
-105.5000000000001
 20
89.80000000000021
 30
0.0
 40
0.2000000000002408
 50
45.00000001026834
 51
90.00000001027956
  0
ARC
  5
7B
  8
0
 10
-105.4999999999999
 20
89.80000000000062
 30
0.0
 40
0.1999999999998323
 50
90.00000001035284
 51
135.0000000103404
  0
ARC
  5
7C
  8
0
 10
-105.9999999972475
 20
89.86568542494933
 30
0.0
 40
0.1999999999999795
 50
224.9999999896212
 51
314.999999989627
  0
ARC
  5
7D
  8
0
 10
-106.4999999999998
 20
89.79999999999919
 30
0.0
 40
0.2000000000008236
 50
45.00000001037776
 51
90.00000001038134
  0
ARC
  5
7E
  8
0
 10
-106.5000000000004
 20
89.8000000000004
 30
0.0
 40
0.1999999999996049
 50
90.00000001019407
 51
135.000000010182
  0
ARC
  5
7F
  8
0
 10
-106.9999999972477
 20
89.8656854249491
 30
0.0
 40
0.1999999999999795
 50
224.9999999897076
 51
314.9999999897134
  0
ARC
  5
80
  8
0
 10
-107.4999999999995
 20
89.79999999999991
 30
0.0
 40
0.2000000000000901
 50
45.00000001028275
 51
90.00000001029177
  0
ARC
  5
81
  8
0
 10
-37.29999999999475
 20
83.18255851432606
 30
0.0
 40
0.5000000000000167
 50
265.4999999897136
 51
0.0
  0
ARC
  5
82
  8
0
 10
-37.2999999999946
 20
84.62171855640733
 30
0.0
 40
0.4999999999998508
 50
0.0
 51
81.50000001029137
  0
LINE
  5
83
  8
0
 10
-37.33922954785868
 20
82.68409984745948
 30
0.0
 11
-108.156918191455
 21
88.25757281708694
 31
0.0
  0
LINE
  5
84
  8
0
 10
-37.22609529442983
 20
85.11622648808815
 30
0.0
 11
-39.56540719531587
 21
85.46583899414327
 31
0.0
  0
LINE
  5
85
  8
0
 10
-45.27043811776731
 20
86.31846157824793
 30
0.0
 11
-42.71811853487204
 21
85.937014860805
 31
0.0
  0
LINE
  5
86
  8
0
 10
-66.29999999999475
 20
86.96954630996505
 30
0.0
 11
-46.01462061467291
 21
85.37305232875472
 31
0.0
  0
LINE
  5
87
  8
0
 10
-66.29999999999453
 20
88.00000000000023
 30
0.0
 11
-66.29999999999475
 21
86.96954630996505
 31
0.0
  0
LINE
  5
88
  8
0
 10
-62.29999999999474
 20
88.49999999999999
 30
0.0
 11
-65.7999999999945
 21
88.49999999999999
 31
0.0
  0
LINE
  5
89
  8
0
 10
-61.79999999999452
 20
89.50000000380214
 30
0.0
 11
-61.79999999999473
 21
89.0
 31
0.0
  0
LINE
  5
8A
  8
0
 10
-62.15857864375728
 20
89.94142135623775
 30
0.0
 11
-61.85857864465334
 21
89.64142136093551
 31
0.0
  0
LINE
  5
8B
  8
0
 10
-62.65857864100511
 20
89.72426406871226
 30
0.0
 11
-62.44142135623181
 21
89.9414213562377
 31
0.0
  0
LINE
  5
8C
  8
0
 10
-63.15857864375727
 20
89.94142135623775
 30
0.0
 11
-62.94142135347989
 21
89.72426406871226
 31
0.0
  0
LINE
  5
8D
  8
0
 10
-63.6585786410051
 20
89.72426406871226
 30
0.0
 11
-63.4414213562318
 21
89.9414213562377
 31
0.0
  0
LINE
  5
8E
  8
0
 10
-64.1585786437573
 20
89.94142135623775
 30
0.0
 11
-63.94142135347969
 21
89.72426406871226
 31
0.0
  0
LINE
  5
8F
  8
0
 10
-64.65857864100508
 20
89.72426406871226
 30
0.0
 11
-64.44142135623181
 21
89.9414213562377
 31
0.0
  0
LINE
  5
90
  8
0
 10
-65.15857864375727
 20
89.94142135623775
 30
0.0
 11
-64.94142135347988
 21
89.72426406871226
 31
0.0
  0
LINE
  5
91
  8
0
 10
-65.6585786410051
 20
89.72426406871226
 30
0.0
 11
-65.44142135623179
 21
89.9414213562377
 31
0.0
  0
LINE
  5
92
  8
0
 10
-66.1585786437573
 20
89.94142135623775
 30
0.0
 11
-65.94142135347968
 21
89.72426406871226
 31
0.0
  0
LINE
  5
93
  8
0
 10
-66.65857864100508
 20
89.72426406871182
 30
0.0
 11
-66.44142135623179
 21
89.9414213562377
 31
0.0
  0
LINE
  5
94
  8
0
 10
-67.15857864375718
 20
89.94142135623765
 30
0.0
 11
-66.94142135347968
 21
89.72426406871226
 31
0.0
  0
LINE
  5
95
  8
0
 10
-67.65857864100508
 20
89.72426406871182
 30
0.0
 11
-67.44142135623179
 21
89.9414213562377
 31
0.0
  0
LINE
  5
96
  8
0
 10
-68.15857864375681
 20
89.94142135623729
 30
0.0
 11
-67.94142135347968
 21
89.72426406871226
 31
0.0
  0
LINE
  5
97
  8
0
 10
-68.65857864100505
 20
89.72426406871182
 30
0.0
 11
-68.44142135623179
 21
89.9414213562377
 31
0.0
  0
LINE
  5
98
  8
0
 10
-69.15857864375681
 20
89.94142135623727
 30
0.0
 11
-68.94142135347968
 21
89.72426406871182
 31
0.0
  0
LINE
  5
99
  8
0
 10
-69.741421356232
 20
89.64142135623752
 30
0.0
 11
-69.44142135623179
 21
89.9414213562377
 31
0.0
  0
LINE
  5
9A
  8
0
 10
-68.2999999999945
 20
88.50000000000045
 30
0.0
 11
-68.79999999999472
 21
88.50000000000045
 31
0.0
  0
LINE
  5
9B
  8
0
 10
-67.79999999999478
 20
87.08759887020204
 30
0.0
 11
-67.7999999999945
 21
88.0
 31
0.0
  0
LINE
  5
9C
  8
0
 10
-100.0422785038909
 20
89.62512122037431
 30
0.0
 11
-67.79999999999478
 21
87.08759887020204
 31
0.0
  0
LINE
  5
9D
  8
0
 10
-100.3585786437626
 20
89.94142135623775
 30
0.0
 11
-100.0422785038909
 21
89.62512122037431
 31
0.0
  0
LINE
  5
9E
  8
0
 10
-100.8585786410105
 20
89.72426406871226
 30
0.0
 11
-100.6414213562372
 21
89.9414213562377
 31
0.0
  0
LINE
  5
9F
  8
0
 10
-101.3585786437626
 20
89.94142135623775
 30
0.0
 11
-101.1414213534853
 21
89.72426406871226
 31
0.0
  0
LINE
  5
A0
  8
0
 10
-101.8585786410105
 20
89.72426406871226
 30
0.0
 11
-101.6414213562372
 21
89.9414213562377
 31
0.0
  0
LINE
  5
A1
  8
0
 10
-102.3585786437626
 20
89.94142135623775
 30
0.0
 11
-102.1414213534851
 21
89.72426406871226
 31
0.0
  0
LINE
  5
A2
  8
0
 10
-102.8585786410105
 20
89.72426406871226
 30
0.0
 11
-102.6414213562372
 21
89.9414213562377
 31
0.0
  0
LINE
  5
A3
  8
0
 10
-103.3585786437626
 20
89.94142135623775
 30
0.0
 11
-103.1414213534853
 21
89.72426406871226
 31
0.0
  0
LINE
  5
A4
  8
0
 10
-103.8585786410105
 20
89.72426406871226
 30
0.0
 11
-103.6414213562372
 21
89.9414213562377
 31
0.0
  0
LINE
  5
A5
  8
0
 10
-104.3585786437627
 20
89.94142135623775
 30
0.0
 11
-104.1414213534851
 21
89.72426406871226
 31
0.0
  0
LINE
  5
A6
  8
0
 10
-104.8585786410104
 20
89.72426406871182
 30
0.0
 11
-104.6414213562372
 21
89.9414213562377
 31
0.0
  0
LINE
  5
A7
  8
0
 10
-105.3585786437626
 20
89.94142135623765
 30
0.0
 11
-105.141421353485
 21
89.72426406871226
 31
0.0
  0
LINE
  5
A8
  8
0
 10
-105.8585786410104
 20
89.72426406871182
 30
0.0
 11
-105.6414213562372
 21
89.9414213562377
 31
0.0
  0
LINE
  5
A9
  8
0
 10
-106.3585786437621
 20
89.94142135623729
 30
0.0
 11
-106.141421353485
 21
89.72426406871226
 31
0.0
  0
LINE
  5
AA
  8
0
 10
-106.8585786410104
 20
89.72426406871182
 30
0.0
 11
-106.6414213562372
 21
89.9414213562377
 31
0.0
  0
LINE
  5
AB
  8
0
 10
-107.3585786437621
 20
89.94142135623727
 30
0.0
 11
-107.141421353485
 21
89.72426406871182
 31
0.0
  0
LINE
  5
AC
  8
0
 10
-109.9841356497749
 20
90.0
 30
0.0
 11
-107.4999999999995
 21
90.0
 31
0.0
  0
LINE
  5
AD
  8
0
 10
-36.79999999999474
 20
84.62171855640736
 30
0.0
 11
-36.79999999999474
 21
83.18255851432605
 31
0.0
  0
ENDSEC
  0
EOF
